Forum Ukulele4ever

Chers amis et amateurs de Ukulélé, ce forum propose que chacun puisse partager sa passion envers cet instrument.Tablatures, conseils, discussions musicales et amicales sont les bienvenus.
 
AccueilRechercherS'enregistrerConnexion

Partagez
 

 Tablatures reggae

Aller en bas 
AuteurMessage
mamzelle ska

mamzelle ska

Messages : 40
Date d'inscription : 15/10/2009
Age : 27

Tablatures reggae Empty
MessageSujet: Tablatures reggae   Tablatures reggae I_icon_minitimeJeu 15 Oct 2009 - 16:15

Hey! Je cherche des tablatures genre reggae, si vous en avez, je suis preneuse car je n'en trouve que pour guitare et je sais pas retranscrire! Smile
Merci d'avance! Wink
Revenir en haut Aller en bas
Dylan

Dylan

Messages : 925
Date d'inscription : 17/02/2009
Age : 30
Localisation : Essonne

Tablatures reggae Empty
MessageSujet: Re: Tablatures reggae   Tablatures reggae I_icon_minitimeJeu 15 Oct 2009 - 21:57

donnes nous les tab guitares que tu voudrais : )
Revenir en haut Aller en bas
mamzelle ska

mamzelle ska

Messages : 40
Date d'inscription : 15/10/2009
Age : 27

Tablatures reggae Empty
MessageSujet: Re: Tablatures reggae   Tablatures reggae I_icon_minitimeVen 16 Oct 2009 - 9:22

Album: "Matador"
De mickey 3d
Couplets:

G
Je n'ai pas peur des americains,
C
Ni des cons, ni des politiciens,
Am
Mais j'ai peur de t'attraper la main
D
Et que tu me m'esquive encore



Refrain:

G C Am
Je n'ai pas peur de la mort
D G
Mais que tu m'évite encore
C Am
............matador
D F
Qu'un jour je t'aurais alors


Pont:

E Bm
On a vu des taureaux aimer des taureros
G Bm G Bm F#m
On a vu des taureaux aimer les taureros Ouh oH oH...


Bon celle là elle est pas du tout reggae j'avoue mais en cherchant je suis tombée dessus et j'aime bien =)


Bm G
embrasse moi dessus bord
D A
viens mon ange retracer le ciel....

voila, le tout en barrés et repété jusqu'a la fin....

enjoy... Wink

Serre-moide Tryo :p
Instruments : Guitare
Intro:
e(------------------------------------------------------------)
B(--5/7---5-----5----------5/7---5-----5----------------------)
G(------------7------4---------------7-----7--6--7------------)
D(------------------------------------------------------------)
A(------------------------------------------------------------)
E(------------------------------------------------------------)

Accord:
Cm - 335543
G# - 466544
d# - 668886
A# - 688766

Cm G#
Embrasse moi dessus bord
D# A#
Viens mon ange retracer le ciel...

(ainci de suite jusqu'as la fin)


Instruments : Guitare


Accords :

Embrasse moi dessus bord viens mon ange retarcer le ciel...

e ---2---3---5---5-----------------------------
b ---2---3---5---5-----------------------------
g ---4---3---7---5-----------------------------
d ---4---5---7---7-----------------------------
a ---2---5---5---7-----------------------------
e ---2---3---5---5-----------------------------


Refrain :

Il y a des salauds qui pillent.....

e ------------------------2--------------------
b ---0-3----------3----2----2------------------
g ---------0-4---2------2----------------------
d ---------------------------------------------
a ---------------------------------------------
e ---------------------------------------------

wapapadada wapapadadadada.....

e ---------------------------------------------
b ---7--5---5-------7--5---5-------------------
g --------7---4----------7---7--6--7----------- (x2)
d ---------------------------------------------
a ---------------------------------------------
e ---------------------------------------------


Bon voilà, sur le coup je trouve pas vraiment de truc reggae à par Bob... =)
Revenir en haut Aller en bas
lepouletroux

lepouletroux

Messages : 389
Date d'inscription : 18/02/2009
Age : 33
Localisation : Valenciennes- Nord

Tablatures reggae Empty
MessageSujet: Re: Tablatures reggae   Tablatures reggae I_icon_minitimeVen 16 Oct 2009 - 12:46

Bon je reprend l'ensemble avec les petites annotations qui vont bien avec Wink
Je marque tout les accords nouveau que je vois, après ça se répète, j'évite d'encombrer la vision du doc...


Album: "Matador"
De mickey 3d
Couplets:

G (0232)
Je n'ai pas peur des americains,
C ( 0003)
Ni des cons, ni des politiciens,
Am ( 2000)
Mais j'ai peur de t'attraper la main
D (2220)
Et que tu me m'esquive encore



Refrain:

G C Am
Je n'ai pas peur de la mort
D G
Mais que tu m'évite encore
C Am
............matador
D F ( 2010)
Qu'un jour je t'aurais alors


Pont:

E (4441)Bm (4222)
On a vu des taureaux aimer des taureros
G Bm G Bm F#mn (2120)
On a vu des taureaux aimer les taureros Ouh oH oH...


Bon celle là elle est pas du tout reggae j'avoue mais en cherchant je suis tombée dessus et j'aime bien =)


Bm G
embrasse moi dessus bord
D A
viens mon ange retracer le ciel....

voila, le tout en barrés et repété jusqu'a la fin....

enjoy... Wink

Serre-moide Tryo :p
Instruments : Guitare
Intro:

A--7/9---7-----7-----------7/9---7----7------------
E-------------10------7------------10-----10-9-10-
C------------------------------------------------------
G------------------------------------------------------

Accord:
Cm - 0333
G# - 4232
d# - 3331
A# - 3211

Cm G#
Embrasse moi dessus bord
D# A#
Viens mon ange retracer le ciel...

(ainci de suite jusqu'as la fin)





Refrain :

Il y a des salauds qui pillent.....

A--2-5-----------5---4-9--4---
E---------3-7---5-----5---------
C-------------------------------
G-------------------------------


wapapadada wapapadadadada.....


A---9--7---7--------9--7---7----------
E--------10--7-----------10--10-9-10- (x2)
C----------------------------------------
G----------------------------------------
Revenir en haut Aller en bas
https://www.youtube.com/user/lepouletroux
KeepUking

KeepUking

Messages : 52
Date d'inscription : 12/10/2009
Age : 37
Localisation : Nice

Tablatures reggae Empty
MessageSujet: Re: Tablatures reggae   Tablatures reggae I_icon_minitimeVen 16 Oct 2009 - 13:48

Lepouletroux a encore frappé Wink
Comment doit on jouer le 7/9 stp ?


lepouletroux a écrit:


A--7/9---7-----7-----------7/9---7----7------------
E-------------10------7------------10-----10-9-10-
C------------------------------------------------------
G------------------------------------------------------


Merci
__
FaB
Revenir en haut Aller en bas
http://fabien06.jimdo.com
mamzelle ska

mamzelle ska

Messages : 40
Date d'inscription : 15/10/2009
Age : 27

Tablatures reggae Empty
MessageSujet: Re: Tablatures reggae   Tablatures reggae I_icon_minitimeVen 16 Oct 2009 - 14:56

Merci Very Happy
Revenir en haut Aller en bas
lepouletroux

lepouletroux

Messages : 389
Date d'inscription : 18/02/2009
Age : 33
Localisation : Valenciennes- Nord

Tablatures reggae Empty
MessageSujet: Re: Tablatures reggae   Tablatures reggae I_icon_minitimeVen 16 Oct 2009 - 18:09

Ché suis lé pouletroux mazké! mouhhahaha !
sinon, pour revenir à nos moutons, la présence d'un "/", comme ici le "7/9" , signifie que l'on doit faire glisser le doigt du 7 au 9, c'est un slide je crois bien, moi et les terme technique ça fait deux, mais en tout cas, c'est comme cela que ça fonctionne Wink
Revenir en haut Aller en bas
https://www.youtube.com/user/lepouletroux
Dylan

Dylan

Messages : 925
Date d'inscription : 17/02/2009
Age : 30
Localisation : Essonne

Tablatures reggae Empty
MessageSujet: Re: Tablatures reggae   Tablatures reggae I_icon_minitimeVen 16 Oct 2009 - 18:18

to slide : glisser

oui, c'est un slide : )
Revenir en haut Aller en bas
KeepUking

KeepUking

Messages : 52
Date d'inscription : 12/10/2009
Age : 37
Localisation : Nice

Tablatures reggae Empty
MessageSujet: Re: Tablatures reggae   Tablatures reggae I_icon_minitimeVen 16 Oct 2009 - 19:58

super Wink merci les gars
Revenir en haut Aller en bas
http://fabien06.jimdo.com
Contenu sponsorisé




Tablatures reggae Empty
MessageSujet: Re: Tablatures reggae   Tablatures reggae I_icon_minitime

Revenir en haut Aller en bas
 
Tablatures reggae
Revenir en haut 
Page 1 sur 1

Permission de ce forum:Vous ne pouvez pas répondre aux sujets dans ce forum
Forum Ukulele4ever :: Tablatures :: RECHERCHE de tablatures-
Sauter vers: