Forum Ukulele4ever

Chers amis et amateurs de Ukulélé, ce forum propose que chacun puisse partager sa passion envers cet instrument.Tablatures, conseils, discussions musicales et amicales sont les bienvenus.
 
AccueilCalendrierFAQRechercherMembresGroupesS'enregistrerConnexion

Partagez | 
 

 Hotel California Intro

Voir le sujet précédent Voir le sujet suivant Aller en bas 
AuteurMessage
Spock

avatar

Messages : 35
Date d'inscription : 06/07/2010
Age : 24

MessageSujet: Hotel California Intro   Dim 12 Juin 2011 - 21:44

Hotel California Intro

|----2---------|----1-----|----0----------|-----7----5-|----2-----2---------5---|
|---2-2--------|---2-2---|---0-0--------|----4--4-----|---3--3-----3--5/7-----|
|--2---2--2-4-|--1---1--|--1---1--2-4-|---4-----4---|--2-----2----------------|
|-4-----4------|-3-----3-|-2-----2------|-4-----------|-0------------------------|

|----5--5/7-7/9-|----2----|----1-----|
|---2-2----------|---3-3---|---2-2---| *TAP TAP*
|--2---2---------|--2---2--|--1---1--|
|-2--------------|-4-----4-|-3-----3--| ( Le tout x2 )
Revenir en haut Aller en bas
Voir le profil de l'utilisateur
 
Hotel California Intro
Voir le sujet précédent Voir le sujet suivant Revenir en haut 
Page 1 sur 1
 Sujets similaires
-
» Chorale
» Hotel California par un virtuose de 16 ans
» Hotel California Eagles par bunda34
» Hotel California lors de notre sejour jazz et ski
» [Rumeur] Tokio Hotel sur Sans Interdit NRJ en septembre ou octobre ?

Permission de ce forum:Vous ne pouvez pas répondre aux sujets dans ce forum
Forum Ukulele4ever :: Tablatures :: PARTAGE de tablatures-
Sauter vers: