Forum Ukulele4ever

Chers amis et amateurs de Ukulélé, ce forum propose que chacun puisse partager sa passion envers cet instrument.Tablatures, conseils, discussions musicales et amicales sont les bienvenus.
 
AccueilCalendrierFAQRechercherMembresGroupesS'enregistrerConnexion

Partagez | 
 

 Europa Carlos Santana

Voir le sujet précédent Voir le sujet suivant Aller en bas 
AuteurMessage
Equestca

avatar

Messages : 273
Date d'inscription : 27/12/2008
Age : 41
Localisation : Belgique

MessageSujet: Europa Carlos Santana   Jeu 6 Mai 2010 - 11:54

D'après la lesson 26 de Aldrine Guerrero

http://ukuleleunderground.com/2010/02/01/uke-lesson-26-europa/

Accords :

Gm: 1320
C7 : 1000
F : 0102
Am : 0002
Dm : 0122
A7 : 0010

Strumming : Bas Haut étouffé Haut Haut Bas étouffé Haut Bas

Enchainement des accords : Gm C7 F Am Dm
Gm A7 Dm A7 Dm attention pour les accord en orange il faut jouer Bas Haut étouffé seulement...

Picking :

partie1:(rem 3/5 il faut jouer le 3 et glisser sur le 5)
(rem 0H1P0 on joue le 0 puis on "frappe" le 1 et puis on "relache" vite... )

------5-7-8-7-5---------3-5-7-5-3--------1-3-5-3-1-----------------------0H1P0-----------
-3/5-------------5-6--3-------------3-5-1--------------1-3--3-3-3-3-1-0----------3-1-0-----
------------------------------------------------------------------------------------------------1-2-
----------------------------------------------------------------------------------------------------

Partie2:
------5-10-12-12--10--8--7--5--3--4--5--4--5---
-3/5-----------10----8--8--8--5--4--3--5--3--5---
----------------10--10---9--9--5--5--4--5--4--5--
----------------10----9--10-----5---------5-----5---
Pas très sure de cette partie... il faut jouer 1 fois l'accord puis 1 fois chaque cordes.

Partie 3:
---------------------------------------------------3----------3-3-----3-5-3-5-3------------------
----0-1-3/5-----3/5------3/5----3-1-3-1-3/5-----1-3/5-------5---------------5-3/1----3/5--
--2----------2-2-----2-2------0-----------------------------------------------------------2------
----------------------------------------------------------------------------------------------------


-----------------0H1P0----------------
------3/5-----3-----------3-1-0---------
---2--------2----------------------1-2----
-------------------------------------------

Voila, j'espère qu'il n'y a pas trop de bétises... flower
Revenir en haut Aller en bas
Voir le profil de l'utilisateur
Ukileley

avatar

Messages : 74
Date d'inscription : 25/07/2009

MessageSujet: Vidéo   Dim 9 Mai 2010 - 15:49

J'ai trouvé une chouette vidéo pour ilustré ceci ...
http://www.youtube.com/watch?v=Virwkl2dtSg&feature=related
Revenir en haut Aller en bas
Voir le profil de l'utilisateur
lepouletroux

avatar

Messages : 389
Date d'inscription : 18/02/2009
Age : 30
Localisation : Valenciennes- Nord

MessageSujet: Re: Europa Carlos Santana   Dim 9 Mai 2010 - 17:20

Ça doit être parce que c'est la vidéo qui illustre la tablature sur Ukulele Underground lol
Revenir en haut Aller en bas
Voir le profil de l'utilisateur http://www.youtube.com/user/lepouletroux
Equestca

avatar

Messages : 273
Date d'inscription : 27/12/2008
Age : 41
Localisation : Belgique

MessageSujet: Re: Europa Carlos Santana   Lun 10 Mai 2010 - 10:56

Euh... pourquoi il y a des mots qui se mettent en liens pour de la pub???? confused

Ca faits ça aussi chez vous?
Revenir en haut Aller en bas
Voir le profil de l'utilisateur
Dylan

avatar

Messages : 925
Date d'inscription : 17/02/2009
Age : 28
Localisation : Essonne

MessageSujet: Re: Europa Carlos Santana   Lun 10 Mai 2010 - 12:01

pas à ma connaissance sur notre forum :p
Revenir en haut Aller en bas
Voir le profil de l'utilisateur
Equestca

avatar

Messages : 273
Date d'inscription : 27/12/2008
Age : 41
Localisation : Belgique

MessageSujet: Re: Europa Carlos Santana   Lun 10 Mai 2010 - 16:54

Aie ça dois être mon ordi alors... Suspect
Revenir en haut Aller en bas
Voir le profil de l'utilisateur
nls du 31

avatar

Messages : 61
Date d'inscription : 08/12/2008
Age : 27
Localisation : toulouse

MessageSujet: Re: Europa Carlos Santana   Lun 10 Mai 2010 - 18:36

ça me le fais aussi
Revenir en haut Aller en bas
Voir le profil de l'utilisateur
Equestca

avatar

Messages : 273
Date d'inscription : 27/12/2008
Age : 41
Localisation : Belgique

MessageSujet: Re: Europa Carlos Santana   Lun 10 Mai 2010 - 19:37

ouf c'est pas mon ordi alors... Razz

C'est quant même bizzare comme truc, je l'avais jamais vu avant. Suspect
Revenir en haut Aller en bas
Voir le profil de l'utilisateur
Contenu sponsorisé




MessageSujet: Re: Europa Carlos Santana   

Revenir en haut Aller en bas
 
Europa Carlos Santana
Voir le sujet précédent Voir le sujet suivant Revenir en haut 
Page 1 sur 1
 Sujets similaires
-
» Carlos Santana/Mahavishnu John McLaughlin : Love Devotion Surrender (1973)
» Carlos Santana : Havana Moon (1983)
» Alice Coltrane & Carlos Santana : Illuminations (1974)
» Carlos Santana & Buddy Miles Live! (1972)
» Carlos Santana : The Swing Of Delight (1980)

Permission de ce forum:Vous ne pouvez pas répondre aux sujets dans ce forum
Forum Ukulele4ever :: Tablatures :: PARTAGE de tablatures-
Sauter vers: