Forum Ukulele4ever

Chers amis et amateurs de Ukulélé, ce forum propose que chacun puisse partager sa passion envers cet instrument.Tablatures, conseils, discussions musicales et amicales sont les bienvenus.
 
AccueilCalendrierFAQRechercherMembresGroupesS'enregistrerConnexion

Partagez | 
 

 Zelda Gerudos Valley

Voir le sujet précédent Voir le sujet suivant Aller en bas 
AuteurMessage
Lepticidou

avatar

Messages : 216
Date d'inscription : 06/12/2008
Age : 28
Localisation : Genève/Suisse

MessageSujet: Zelda Gerudos Valley   Sam 13 Déc 2008 - 4:54

Et oui encore Zelda Razz




F#mD
E
C#
0
2
1
2
0
2
2
2
2
4
4
4
4
1
1
1

à jouer en boulce.


---2--4--5--------2--4--5------------------
-2---------------2--------------------------
--------------------------------------------
--------------------------------------------

--2--4--5---------2--4--5------------------
-3---------------3-------------------------
--------------------------------------------
--------------------------------------------


--0--2--4----------0--2--4---2--2/4--2--1--
-0----------------0-------------------------
--------------------------------------------
--------------------------------------------


--5--4--2----0--0--------4---2--0----------
-2--------2--------3---0------------3--2---
--------------------------------------------
--------------------------------------------
Revenir en haut Aller en bas
Voir le profil de l'utilisateur
potexto



Messages : 9
Date d'inscription : 30/07/2010

MessageSujet: Re: Zelda Gerudos Valley   Sam 31 Juil 2010 - 18:47

Il me semble qu'il y a une erreur dans ta tab silent


La fin, ca donnerai plutot :


--5--4--2----0---0--2--0-------4---2--0----------
-2--------2----------------3---0------------3--2---
------------------------------------------------------
------------------------------------------------------


En tout cas, c'est comme ca que j'aurai fait Smile
Revenir en haut Aller en bas
Voir le profil de l'utilisateur
nu2gets

avatar

Messages : 8
Date d'inscription : 01/05/2011

MessageSujet: Re: Zelda Gerudos Valley   Mar 3 Mai 2011 - 22:02

Merci beaucoup, c'est vachement sympa a jouer ! vraiment sympa la bande son des zelda !!!
Revenir en haut Aller en bas
Voir le profil de l'utilisateur
Contenu sponsorisé




MessageSujet: Re: Zelda Gerudos Valley   

Revenir en haut Aller en bas
 
Zelda Gerudos Valley
Voir le sujet précédent Voir le sujet suivant Revenir en haut 
Page 1 sur 1
 Sujets similaires
-
» Walnut Valley Festival
» [Anime] The Legend Of Zelda ( 1989 )
» The Legend of Zelda
» [ALBI] Sky Valley
» vous pensez quoi des Valley Arts ?

Permission de ce forum:Vous ne pouvez pas répondre aux sujets dans ce forum
Forum Ukulele4ever :: Tablatures :: PARTAGE de tablatures-
Sauter vers: