Forum Ukulele4ever

Chers amis et amateurs de Ukulélé, ce forum propose que chacun puisse partager sa passion envers cet instrument.Tablatures, conseils, discussions musicales et amicales sont les bienvenus.
 
AccueilCalendrierFAQRechercherMembresGroupesS'enregistrerConnexion

Partagez | 
 

 Prendre un enfant par la main - Yves Duteil-Picking

Voir le sujet précédent Voir le sujet suivant Aller en bas 
AuteurMessage
Equestca

avatar

Messages : 273
Date d'inscription : 27/12/2008
Age : 41
Localisation : Belgique

MessageSujet: Prendre un enfant par la main - Yves Duteil-Picking   Lun 18 Mai 2009 - 12:28

Voici une chanson pas trop compliquée

A-0-2-4-4-2-4-0-
E------------------
C------------------
G------------------
Prendre un enfant par la main,

A-0-2-4-4-5-7-2-
E------------------
C------------------
G------------------
Pour l'emmener vers demain,


A-5-5-4-2-2-0---------
E---------------4-4-2-0
C-----------------------
G---------------------
Pour lui donner la confiance en son pas,


A-------------------
E-4-4-2-0-0------
C-------------2-1-
G------------------
Prendre un enfant pour un roi.


A-4-5-7-7-5-7-4
E-----------------
C-----------------
G-----------------
Prendre un enfant dans ses bras


A-9-9-9-8-8-7-5-
E-----------------
C-----------------
G-----------------
Et pour la première fois,


A-2-4-5-5-4-2-4-5-7-7
E------------------------
C------------------------
G-------------------------
Sécher ses larmes en étouffant sa joie


A---2-4-5-4-2-0-
E-0----------------
C-----------------
G-----------------
Prendre un enfant dans ses bras.


A-8-8-8-7-7--5-4
E-----------------
C-----------------
G-----------------
Prendre un enfant par la main



A-2-4-5-5-4-2-4-5-7-7---
E---------------------------
C------------------------
G-------------------------
En regardant tout au bout du chemin ,


A----2-4-5-4-2-0
E-0----------------
C-----------------
G-----------------
Prendre un enfant pour le sien

Bon il y a des fois ou ça colle pas trop, j'ai transposé d'une partition guitare comme j'ai pu... scratch


Dernière édition par Equestca le Ven 22 Mai 2009 - 12:10, édité 1 fois
Revenir en haut Aller en bas
Voir le profil de l'utilisateur
Kasamatsuri

avatar

Messages : 61
Date d'inscription : 19/05/2009
Age : 36
Localisation : Saintes

MessageSujet: Re: Prendre un enfant par la main - Yves Duteil-Picking   Jeu 21 Mai 2009 - 16:48

Jolie transposition pour une jolie chanson, mais je suggère un 2-1 sur la troisième corde au lieu du 3-2, ca sonne mieux... ("prendre un enfant pour un roi")
Revenir en haut Aller en bas
Voir le profil de l'utilisateur
Equestca

avatar

Messages : 273
Date d'inscription : 27/12/2008
Age : 41
Localisation : Belgique

MessageSujet: Re: Prendre un enfant par la main - Yves Duteil-Picking   Ven 22 Mai 2009 - 10:25

Merci, c'est vrai que ça sonnait pas top...
Revenir en haut Aller en bas
Voir le profil de l'utilisateur
Contenu sponsorisé




MessageSujet: Re: Prendre un enfant par la main - Yves Duteil-Picking   

Revenir en haut Aller en bas
 
Prendre un enfant par la main - Yves Duteil-Picking
Voir le sujet précédent Voir le sujet suivant Revenir en haut 
Page 1 sur 1
 Sujets similaires
-
» La Tendre Image du Bonheur - Yves Duteil
» Robert Johnson
» yves carbonne
» Nouvelles luttes - Yniold est-il une femme ou un enfant ?
» _Ne pas se faire prendre l'appareil photo à l'entrée ou dans la salle.

Permission de ce forum:Vous ne pouvez pas répondre aux sujets dans ce forum
Forum Ukulele4ever :: Tablatures :: PARTAGE de tablatures-
Sauter vers: