Forum Ukulele4ever

Chers amis et amateurs de Ukulélé, ce forum propose que chacun puisse partager sa passion envers cet instrument.Tablatures, conseils, discussions musicales et amicales sont les bienvenus.
 
AccueilCalendrierFAQRechercherMembresGroupesS'enregistrerConnexion

Partagez | 
 

 Hummingbird - Cocoon, la mélodie pour ukulele.

Voir le sujet précédent Voir le sujet suivant Aller en bas 
AuteurMessage
MyFriendsDontMindIt

avatar

Messages : 7
Date d'inscription : 18/04/2009
Age : 28
Localisation : Perpignan

MessageSujet: Hummingbird - Cocoon, la mélodie pour ukulele.   Dim 3 Mai 2009 - 17:18

Voila, une de mes amies a dechiffré les notes, et j'en ai fait une tablature ukulele la plus pratique possible:


D'abord, l'intro :

-A-----1---5--- ----------3-- ----------3--- -------------------
-E---1--------- ------1------- ------0------- --0-----1---------
-C------------- --------------- -------------- ------------2------
-G------------- ----2--------- ---0---------- ------0--------2---


Ensuite la partie qui se répète tout au long de la chanson :

-A----------------1-----5---- --1---------------------3-- ---------3--------------3--
-E--1-----0---1-----1-------- -----1---0-----1---------- --1-------------0----------
-C-----2---------------------- --------------------0------ ------0-------------0------
-G---------------------------- -------------0------------- -------------0--------------


-A----------0--------------0--
-E--0---------------1---------
-C------0---------------2-----
-G--------------0-------------

Les espaces représentent les petites pauses dans la mélodie. Je mettrai plus tard une video explicative, en tant que débutante j'ai du prendre le coup de main, mais c'est une question d'habitude.
J'espère que ça vous servira !
Pour écouter la musique : http://www.youtube.com/watch?v=gSX9oSrHDCw
Revenir en haut Aller en bas
Voir le profil de l'utilisateur
Joujo'



Messages : 61
Date d'inscription : 08/12/2008

MessageSujet: Re: Hummingbird - Cocoon, la mélodie pour ukulele.   Dim 3 Mai 2009 - 20:31

grosse galère de faire cette méthode, j'avais posté un sujet ou je mettais les accords au ukulélé . Ce sont exactement les même que dans la chanson original et tu n'a presque pas à bouger tes doigts, alors que la tablature que tu as faite ( très bien réalisé dailleur ) est trop complexe !



Intro :
F C G Am
(Bb) (F) (C) (Dm)
-----5-------3-------3-------------0-----
---6-----5-------3---------3h5-3-----3---
-5---------5-------4-----2-------2-----2-


F C G Am
(Bb) (F) (C) (Dm)
---------5----------------3------3-------3------0---------0-------
-0---6------6-----3h5-3------3-----3--------3-----3h5-3-----3---0-
---5---5------5-0-------0------0-----4-0------0---------2-----2---

Couplets et refrains :
F C G Am x3
(Bb) (F) (C) (Dm)
---------5----------------3------3-------3------0---------0-------
-0---6------6-----3h5-3------3-----3--------3-----3h5-3-----3---0-
---5---5------5-0-------0------0-----4-0------0---------2-----2---


F C G G7
(Bb) (F) (C) (C7)
---------5----------------3------3-------3--------1-------1-----
-0---6------6-----3h5-3------3-----3--------3---3---3---3---3---
---5---5------5-0-------0------0-----4-0------0-------0-------0-



F C G Am
(Bb) (F) (C) (Dm)
There's a long, long road to reach your house
F C G Am
(Bb) (F) (C) (Dm)
I arrived just before, just before the sunset
F C G Am
(Bb) (F) (C) (Dm)
And you said, and you said welcome with your eyes
F C G G7
(Bb) (F) (C) (C7)
And we said, and we said nothing at all



C'est beaucoup plus pratique comme sa !

afro
Revenir en haut Aller en bas
Voir le profil de l'utilisateur
nls du 31

avatar

Messages : 61
Date d'inscription : 08/12/2008
Age : 26
Localisation : toulouse

MessageSujet: Re: Hummingbird - Cocoon, la mélodie pour ukulele.   Mer 10 Juin 2009 - 15:19

Joujo', c'est normal qu'il n'y ait que 3 cordes écrites dans ta tab?
Revenir en haut Aller en bas
Voir le profil de l'utilisateur
Yohan

avatar

Messages : 101
Date d'inscription : 26/04/2009
Age : 25
Localisation : Bretagne

MessageSujet: Re: Hummingbird - Cocoon, la mélodie pour ukulele.   Mer 10 Juin 2009 - 19:17

Merci pour la tabs.
J'avais vu la même une fois mais je m'y étais pas attardé.

Très jolie chanson, on va voir ce que je vais en faire cette fois là Very Happy
Revenir en haut Aller en bas
Voir le profil de l'utilisateur
Joujo'



Messages : 61
Date d'inscription : 08/12/2008

MessageSujet: Re: Hummingbird - Cocoon, la mélodie pour ukulele.   Mer 10 Juin 2009 - 22:11

Bien sur que c'est normal cette chanson ne se joue que sur les trois dernières cordes du Uku donc Do Mi et La ! Smile
Revenir en haut Aller en bas
Voir le profil de l'utilisateur
Hyacinthe

avatar

Messages : 5
Date d'inscription : 16/04/2009
Age : 24
Localisation : Belgique

MessageSujet: Re: Hummingbird - Cocoon, la mélodie pour ukulele.   Lun 21 Déc 2009 - 14:33

Veuillez excuser mon intervention quelque peu cavalière mais j'ai une préférence pour l'interprétation de la jeune dame bien que le jeu soit plus compliqué je l'admets
Revenir en haut Aller en bas
Voir le profil de l'utilisateur http://the-c0nfetti.skyrock.com/
clochette



Messages : 64
Date d'inscription : 07/09/2009

MessageSujet: Re: Hummingbird - Cocoon, la mélodie pour ukulele.   Ven 25 Déc 2009 - 1:14

J'ai le bouquin officiel des tabs pour le uku, je pourrai jeter un oeil si vous voulez ?
Revenir en haut Aller en bas
Voir le profil de l'utilisateur
FlyingJems



Messages : 3
Date d'inscription : 03/02/2010
Age : 33

MessageSujet: Re: Hummingbird - Cocoon, la mélodie pour ukulele.   Mer 3 Fév 2010 - 22:17

Ça serait cool d'avoir la version du bouquin officiel Smile
Revenir en haut Aller en bas
Voir le profil de l'utilisateur
clochette



Messages : 64
Date d'inscription : 07/09/2009

MessageSujet: Re: Hummingbird - Cocoon, la mélodie pour ukulele.   Mer 3 Fév 2010 - 22:39

ah oui, scusez le retard !

---------5----------------3-----------------3--------------------0-----------------------5---------
------6-------------5----------------------------------------1--------1-----0-----6-----------6------
5----------------------5-----------------4--------------------2---------2-----5-----5-----------5
--------------------------------------0-------------0--0--2-----------------------------------------

-----------------3-----------3------------3-----------0---------------0------------------------
--0-------1-----------1------------0-----------0---------------1-----------1------0---------------
--------------0-----------0------------0-----------0---------------2-----------2---------------
-----0--2-----------------------0------------------------0--2-------------------------------
Voilou !
Revenir en haut Aller en bas
Voir le profil de l'utilisateur
FlyingJems



Messages : 3
Date d'inscription : 03/02/2010
Age : 33

MessageSujet: Re: Hummingbird - Cocoon, la mélodie pour ukulele.   Jeu 4 Fév 2010 - 0:33

Merci beaucoup ! Smile Smile
Revenir en haut Aller en bas
Voir le profil de l'utilisateur
clochette



Messages : 64
Date d'inscription : 07/09/2009

MessageSujet: Re: Hummingbird - Cocoon, la mélodie pour ukulele.   Jeu 4 Fév 2010 - 0:34

Pas de quoi !
Revenir en haut Aller en bas
Voir le profil de l'utilisateur
Askari



Messages : 4
Date d'inscription : 22/01/2010

MessageSujet: Re: Hummingbird - Cocoon, la mélodie pour ukulele.   Dim 7 Fév 2010 - 14:30

Je voudrais savoir , comme tu as les partitions officielle tu pourrais me donner les tabs des 2 solo de guitare dans la chanson ?


Merci beaucoup Smile
Revenir en haut Aller en bas
Voir le profil de l'utilisateur
clochette



Messages : 64
Date d'inscription : 07/09/2009

MessageSujet: Re: Hummingbird - Cocoon, la mélodie pour ukulele.   Dim 7 Fév 2010 - 16:18

Bien sûr !
Premier
----------------------------------------------------------------------------------------------------
----------------------------------------------------------------------------------------------------
--------0-------------------------------------------------------------------------------------------
-2--4------4--2------0-----------0--0--2----4--2------------0-----------------------0----2--4-
----------------------------0--2-----------------------------------2--------------4--------------
----------------------------------------------------------------------------------------------------

--------------------------------------------------------------------------------------------------
-----------------------------------------------------------------------------------------------
-0-------------------------------------------------------------------------------4-------------
---4--2------0-----------0--0--2----4--2--------2--4----4/5----4--5----7-----------------
-----------------0--2------------------------------------------------------------------------------
-------------------------------------------------------------------------------------------------

Deuxième
---------------------------------------------------------------------------------------------------
---------------------------------------------------------------------------------------------------
--------0-------------------------------------------------------------------------------------------
-2--4------4--2------0-----------0--0--2----4--2------------0-----------------------0----2--4-
----------------------------0--2-----------------------------------2----------2----4--------------
----------------------------------------------------------------------------------------------------

--------------------------------------------------------------------------------------------------
-----------------------------------------------------------------------------------------------
-0--------------------------------------------------------------------------------------------
---4--2------0-----------0--0--2----4--2--------2--4----4/5----4----2--4-----------------
-----------------0--2------------------------------------------------------------------------------
-------------------------------------------------------------------------------------------------
Revenir en haut Aller en bas
Voir le profil de l'utilisateur
Askari



Messages : 4
Date d'inscription : 22/01/2010

MessageSujet: Re: Hummingbird - Cocoon, la mélodie pour ukulele.   Dim 7 Fév 2010 - 18:06

Merci beaucoup Very Happy
Revenir en haut Aller en bas
Voir le profil de l'utilisateur
Contenu sponsorisé




MessageSujet: Re: Hummingbird - Cocoon, la mélodie pour ukulele.   

Revenir en haut Aller en bas
 
Hummingbird - Cocoon, la mélodie pour ukulele.
Voir le sujet précédent Voir le sujet suivant Revenir en haut 
Page 1 sur 1
 Sujets similaires
-
» Cone pour Ukulele
» Cône resonateur National pour Ukulele ou Cigar Box ! [VENDU]
» Le pouce pour les basses le reste pour la mélodie
» Conseil pour débuter
» Vends ukulele Fluke en étui rigide

Permission de ce forum:Vous ne pouvez pas répondre aux sujets dans ce forum
Forum Ukulele4ever :: Tablatures :: PARTAGE de tablatures-
Sauter vers: