Forum Ukulele4ever

Chers amis et amateurs de Ukulélé, ce forum propose que chacun puisse partager sa passion envers cet instrument.Tablatures, conseils, discussions musicales et amicales sont les bienvenus.
 
AccueilCalendrierFAQRechercherMembresGroupesS'enregistrerConnexion

Partagez | 
 

 Hallelujah-Jeff Buckley

Voir le sujet précédent Voir le sujet suivant Aller en bas 
AuteurMessage
nls du 31

avatar

Messages : 61
Date d'inscription : 08/12/2008
Age : 26
Localisation : toulouse

MessageSujet: Hallelujah-Jeff Buckley   Mer 29 Avr 2009 - 14:38

Intro : Do - Lam - Do - Lam

Do Lam
I heard there was a secret chord
Do Lam
that David played and it pleased the Lord
Fa Sol Do Sol
But you don't really care for music, do you?
Do
it goes like this:
Fa Sol Lam Fa SOl
The fourth, the fifth, the minor fall and the major lift
SOl Mim Lam
The baffled king composing Hallelujah

Fa Lam Fa Do Sol Do Sol
Hallelujah, Hallelujah, Hallelujah, Hallelu-------------jah


Well your faith was strong but you needed proof
You saw her bathing on the roof
Her beauty and the moonlight overthrough ya
She tied you to her kitchen chair
She broke your throne and she cut your hair
And from your lips she drew the Hallelujah

Hallelujah, Hallelujah, Hallelujah, Hallelujah

Well, maybe I've been here before
I've seen this room and I've walked this floor
I used to live with Leonard before I knew ya
I've seen your flag on the marble arch
But love is not a victory march
It's a cold and it's a broken Hallelujah

Hallelujah, Hallelujah, Hallelujah, Hallelujah

There was a time when you let me know
What's really going on below
But now you never show that to me do ya
But remember when I moved in you
And the holy dove was moving too
And every breath you drew was Hallelujah

Hallelujah, Hallelujah, Hallelujah, Hallelujah

And maybe there's a God above
But all I've ever learned from love
Was how to shoot somebody who outdrew ya
Well it's not a cry that you hear at night
It's not somebody who's seen the light
It's a cold and it's a broken Hallelujah

Hallelujah, Hallelujah, Hallelujah, Hallelujah





Chanson magnifique a faire tout en arpége (il faut avoir de l'endurence contrairement à moi)
Revenir en haut Aller en bas
Voir le profil de l'utilisateur
Dylan

avatar

Messages : 925
Date d'inscription : 17/02/2009
Age : 28
Localisation : Essonne

MessageSujet: Re: Hallelujah-Jeff Buckley   Mer 29 Avr 2009 - 14:43

indique la forme basique de l'arpège, ca pourrait etre sympa : )
Revenir en haut Aller en bas
Voir le profil de l'utilisateur
clemclem

avatar

Messages : 39
Date d'inscription : 15/04/2010
Age : 24
Localisation : Genève, Suisse

MessageSujet: Re: Hallelujah-Jeff Buckley   Jeu 15 Avr 2010 - 19:34

ARPEGE
-3------------3------------0------------0------------3------------3-------------
-----0------------0------------0-------------0------------0------------0--------
----------0------------0-----------0-------------0------------0-------------0---
-0------------0------------2------------2------------0------------0-------------

-0------------0-----------0----------0-----------0------------2-----------------
-----0------------0-----------1----------1-----------1------------3-------------
---------0------------0----------0-----------0-----------0-------------2--------
-2------------2-----------2----------2-----------2------------0-----------------

-3------------3------------2------------2------------3------------3-------------
-----0------------0------------3-------------3------------0------------0--------
----------0------------0-----------2-------------2------------0-------------0---
-0------------0------------0------------0------------0------------0-------------

-0------------2------------0------------0------------0------------0-------------
-----1------------3------------0-------------0------------1------------1--------
----------0------------2-----------0-------------0------------0-------------0---
-2------------0------------2------------2------------2------------2-------------

-2------------2------------2------------2------------0------------0-------------
-----3------------3------------3-------------3------------0------------0--------
----------2------------2-----------4-------------4------------0-------------0---
-0------------0------------0------------0------------2------------2-------------

-0------------0------------0------------0------------0------------0-------------
-----0------------0------------1-------------1------------1------------1--------
----------0------------0-----------0-------------0------------0-------------0---
-2------------2------------2------------2------------2------------2-------------

-0------------0------------0------------0------------0------------0-------------
-----0------------0------------0-------------0------------1------------1--------
----------0------------0-----------0-------------0------------0-------------0---
-2------------2------------2------------2------------2------------2-------------

-3------------3------------2------------2------------3------------3-------------
-----0------------0------------3-------------3------------0------------0--------
----------0------------0-----------2-------------2------------0-------------0---
-0------------0------------0------------0------------0------------0-------------

voila!
Revenir en haut Aller en bas
Voir le profil de l'utilisateur
Contenu sponsorisé




MessageSujet: Re: Hallelujah-Jeff Buckley   

Revenir en haut Aller en bas
 
Hallelujah-Jeff Buckley
Voir le sujet précédent Voir le sujet suivant Revenir en haut 
Page 1 sur 1
 Sujets similaires
-
» Jeff Buckley
» Biopic de Jeff Buckley
» Jeff Buckley
» Nouvel Album Jeff Buckley
» Jeff Buckley : Grace (1994)

Permission de ce forum:Vous ne pouvez pas répondre aux sujets dans ce forum
Forum Ukulele4ever :: Tablatures :: PARTAGE de tablatures-
Sauter vers: