Forum Ukulele4ever

Chers amis et amateurs de Ukulélé, ce forum propose que chacun puisse partager sa passion envers cet instrument.Tablatures, conseils, discussions musicales et amicales sont les bienvenus.
 
AccueilCalendrierFAQRechercherMembresGroupesS'enregistrerConnexion

Partagez | 
 

 Klaus Badelt - He's a pirate

Voir le sujet précédent Voir le sujet suivant Aller en bas 
AuteurMessage
Dylan

avatar

Messages : 925
Date d'inscription : 17/02/2009
Age : 28
Localisation : Essonne

MessageSujet: Klaus Badelt - He's a pirate   Mar 21 Avr 2009 - 22:07

cheers

N'ayant trouvé ce bijou nulpart j'ai décidé de tenter de le mettre a plat sur un uké moi-meme... en esperant ne pas l'avoir massacré je vous présente le fruit de mon boulot

si vous voyez des erreurs faites moi en part je corrige de suite

----------------------------------------------------5-----------------------------------------------------
----------------------------------------------------2-------------------0-1-1-1-3-0-0-------------------
---0-0-0-0-0-0-0-0-0-0-0-0-0-0-0-0-0-0--2---------0-2-2-2------------------2-0-0^2~~-----
----------------------------------------------------2-----------------------------------------------------

--------------------------------------------------------------0-1-1-0---0-----------------0---------------
-----------0-1-1-1-3-0-0--------------------------1-3-3-3----------3---------0-1-1-3--------1-0-0----
-0-2-2-2------------------2-0^2~~-----0-2-2-2-------------------------2--2-------------2-2-------2-0
-------------------------------------------------------------------------------------------------------------

--------------------------------------------------------------------------------------------------0-1-1-0--
---------0-1-1-1-3-0-0-------------------------0-1-1-1-3-0-0-----------------------1-3-3-3---------
-2-2-2------------------2-0-0^2~~---0-2-2-2----------------2-0^2~~--0-2-2-2-------------------
----------------------------------------------------------------------------------------------------

-----------0---------------0-------------------------------------------------0-----1--------0----
---------3--------0-1-1-3------1-0-0-1---0-------0--0----------0-1-1-3----1-----1-------------
--------------2-2-----------2-2----------2-------0------2-0-2-2----------------2----2--2--------
----------------------------------------------------------------------------------------------------

-0-0-0-1-0-------------0--0-0-0-1-0------------------------0--------------0---------0--------------
-1-1-1-1-1---0-0-0-0-----1-1-1-1-1-0-1-0---------0-1-3----3-1-0--1-3---3--1-3---3-1-0-1-0--
-------------------------------------------2-----2---2------------------------------------------------
---------------0-0-0-0-----------------0---------------------------------------0------------------------

-----------------------------------------0-------------------0--1---------------------0---1----------
------------0---------0--1-0-1--3-1-3---3-1------0--1-3--------3--1-3-0----0----1---1------------
----------2---0--2-2---------------------------2-2--------------2------------2---0--0---2-------------
----------------------------------------------------------------------------------------2---3-----------

-0-0-0-0---------------------------0----1----0-0-0-0-----------0-------0-------------0-----1------------
----------------0--1----0-1-0------1----1-------------------0---1---.0--1-0---------1-----1------------
-------------------2----0-2-0-2----0----2------------------------2----0-2-0----2--2-----2--------------
-----------0----0--------------------2----3------------0-----0--------------------------------------------

-----0--0--3---0-----------------------0--------------------0--------1--------0--0-3---0-------------------
---1-1--1--1---0--------0---1------0--1--0-----------1-----------1-------1-1--1-1---0-------------------
-2---0--0--0---1-------------2-----0--2--0-----2---2----2-----2--------2---0--0-0---1--------------
------2--2--2---2--0----0-------------------------------------------------------2--2-2---2-0-------------

-----------0-----------------------------------------------------------------
-0-1----0-1-0---------1------------------------------------------------------
---2----0-2-0---2---2---2~~~~--------------------------------------------
-0--------------------------------------------------------------------------


plus qu'un mot : a vos youkéééééss mousaillons

a part ca j'ai vu que c'etait pas forcement super bien aligné etc... si vous avez une astuce.... car quand je l'ai ecrit ca l'etait :/


bonne gratte les pirates afro


edit : je vous met la ptite photo de ce que j'ai fait ce sera plus simple plus droit et plus carré


pour le rythme ne suivez pas les espaces, tout est dans le bon ordre mais ils ne vous aiderons pas... ecouter la musique sera d'une plus grand utilité !

si vous voulez le ptit fichier hesitez pas a me mp


Dernière édition par Natana le Mer 22 Avr 2009 - 18:05, édité 3 fois
Revenir en haut Aller en bas
Voir le profil de l'utilisateur
Pépin

avatar

Messages : 96
Date d'inscription : 16/04/2009
Age : 26
Localisation : Nantes

MessageSujet: Re: Klaus Badelt - He's a pirate   Mar 21 Avr 2009 - 22:39

Suffit de copier coller dans le bloc note ou sur Tab transposer.

Sinon, je l'avais vu en vidéo, vraiment très beau et impressionnant. Faudra essayer Very Happy
Revenir en haut Aller en bas
Voir le profil de l'utilisateur http://rockagainstsida.webou.net/
Dylan

avatar

Messages : 925
Date d'inscription : 17/02/2009
Age : 28
Localisation : Essonne

MessageSujet: Re: Klaus Badelt - He's a pirate   Mar 21 Avr 2009 - 22:45

je l'avais sous bloc notes a la base pourtant.... enfin bref avec la photo ca arrange le soucis si vous la voyez bien....
Revenir en haut Aller en bas
Voir le profil de l'utilisateur
riku

avatar

Messages : 252
Date d'inscription : 06/12/2008
Age : 25

MessageSujet: Re: Klaus Badelt - He's a pirate   Mer 22 Avr 2009 - 15:47

Ca a du être vraiment long ! Mais le résultat est vraiment super !
Revenir en haut Aller en bas
Voir le profil de l'utilisateur
Dylan

avatar

Messages : 925
Date d'inscription : 17/02/2009
Age : 28
Localisation : Essonne

MessageSujet: Re: Klaus Badelt - He's a pirate   Mer 22 Avr 2009 - 16:21

je connaissais le morceau a la guitare, j'arrivai a le jouer proprement, ca aide beaucoup pour retrouver l'air !
en tout cas si ca vous plait, je suis content de faire plaisir
Revenir en haut Aller en bas
Voir le profil de l'utilisateur
franky91

avatar

Messages : 77
Date d'inscription : 01/01/2009
Age : 26
Localisation : essonne

MessageSujet: Re: Klaus Badelt - He's a pirate   Lun 27 Avr 2009 - 13:30

Wé super merci sa sonne super bien
Bo travail
Revenir en haut Aller en bas
Voir le profil de l'utilisateur
fynorel



Messages : 10
Date d'inscription : 06/06/2009

MessageSujet: Re: Klaus Badelt - He's a pirate   Mar 6 Oct 2009 - 17:59

heu... je le trouve pas aisé à jouer... une petite astuce ? merci d'avance.
Revenir en haut Aller en bas
Voir le profil de l'utilisateur
Dylan

avatar

Messages : 925
Date d'inscription : 17/02/2009
Age : 28
Localisation : Essonne

MessageSujet: Re: Klaus Badelt - He's a pirate   Mar 6 Oct 2009 - 20:35

l'entrainement : )
Revenir en haut Aller en bas
Voir le profil de l'utilisateur
fynorel



Messages : 10
Date d'inscription : 06/06/2009

MessageSujet: Re: Klaus Badelt - He's a pirate   Ven 16 Oct 2009 - 15:19

Merci...
Revenir en haut Aller en bas
Voir le profil de l'utilisateur
Contenu sponsorisé




MessageSujet: Re: Klaus Badelt - He's a pirate   

Revenir en haut Aller en bas
 
Klaus Badelt - He's a pirate
Voir le sujet précédent Voir le sujet suivant Revenir en haut 
Page 1 sur 1
 Sujets similaires
-
» Klaus Voormann & Friends : A Sideman's Journey (2009)
» Klaus Schulze
» COLLEC DE DVDs PASSAGES TV AVEC DE VRAIS MENUS SANS PIRATE
» [OS] Pirate
» Lisa Gerrard Klaus Schulze

Permission de ce forum:Vous ne pouvez pas répondre aux sujets dans ce forum
Forum Ukulele4ever :: Tablatures :: PARTAGE de tablatures-
Sauter vers: