Forum Ukulele4ever

Chers amis et amateurs de Ukulélé, ce forum propose que chacun puisse partager sa passion envers cet instrument.Tablatures, conseils, discussions musicales et amicales sont les bienvenus.
 
AccueilCalendrierFAQRechercherMembresGroupesS'enregistrerConnexion

Partagez
 

 Coldplay, Trouble

Aller en bas 
AuteurMessage
Dylan

Dylan

Messages : 925
Date d'inscription : 17/02/2009
Age : 30
Localisation : Essonne

Coldplay, Trouble Empty
MessageSujet: Coldplay, Trouble   Coldplay, Trouble I_icon_minitimeMer 18 Fév 2009 - 18:20

Bon musique pas vraiment adaptée a la guitare ni au uku, mais je l'aime quand meme, donc je vais tenter de faire du mieux possible

-2-3-2---3-2-3-2--0-2-3-2---2-----5-2-3-2--3-2-3-2---0-3-2-3--2-------------
--------3-0-------3-0-------3--3--------------3-0--------3-0--------3--3-------------
----------0----------0----------4-----------------0----------0------------4-------------
----------0----------2----------4-----------------0----------2------------4-------------

-3-3-3-0-0-0-0-0-2-2-2-2-2-2-2-2-0-1-1-1-0-0-0-3------
-0-0-0-0-0-0-0-0-3-3-3-3-3-3-3-3-0-1-1-1-0-0-0-0------
-0-0-0-0-0-0-0-0-4-4-4-4-4-4-4-4-0-2-2-2-0-0-0-0-----
-0-0-0-0-2-2-2-0-4-4-4-4-4-4-4-4-0-3-3-3-0-2-2-0------

ici avoir le rythme est le plus compliqué je pense j'essaye de le retranscrire ici
bas bas bas haut bas bas bas haut bas bas bas haut haut bas haut bas haut bas haut bas bas bas haut bas bas bas

ca donne quelquechose comme ca pour moi avec un petit temps de latence entre les espaces j'aimerai bien vous mettre le son avec mais je ne sais meme pas comment :p


bonne grat' a tous
Revenir en haut Aller en bas
Voir le profil de l'utilisateur
 
Coldplay, Trouble
Revenir en haut 
Page 1 sur 1
 Sujets similaires
-
» Coldplay, hommage à Status Quo
» Leonard BERNSTEIN (1918-1990)
» Albert Ayler : Goin' Home (1994)
» #33 Ole Man Trouble - L.A. Getaway (8 juin 2009)
» JDD - premières fuites sur le rapport des experts

Permission de ce forum:Vous ne pouvez pas répondre aux sujets dans ce forum
Forum Ukulele4ever :: Tablatures :: PARTAGE de tablatures-
Sauter vers: