Forum Ukulele4ever

Chers amis et amateurs de Ukulélé, ce forum propose que chacun puisse partager sa passion envers cet instrument.Tablatures, conseils, discussions musicales et amicales sont les bienvenus.
 
AccueilCalendrierFAQRechercherMembresGroupesS'enregistrerConnexion

Partagez | 
 

 Nirvana, Smells like teen spirit

Voir le sujet précédent Voir le sujet suivant Aller en bas 
AuteurMessage
Dylan

avatar

Messages : 925
Date d'inscription : 17/02/2009
Age : 28
Localisation : Essonne

MessageSujet: Nirvana, Smells like teen spirit   Mar 17 Fév 2009 - 14:24

Bon ma premiere tab, j'ai essayé d'adapter de ce que je conaissais de la chanson a la guitare, me tapez pas dessus si c'est loupé Rolling Eyes
Allez je me lance et n'hesitez pas a me corriger.

Riff
Pour le rythme, le meilleur moyen restant d'ecouter la chanson
0--5--3--8
0--5--3--8
2--2--0--5
2--2--0--5
avec les etoufements caracteristiques de cette chanson biensur Smile
ensuite les 2petites notes qui suivent
--------------------------
--1-----------------1------ a repeter autant que necessaire
0-----------------0--------
---------------------------

Pont (celui ci ne me plait pas trop mais c'est la seule facon que j'ai trouvé de le jouer pour le moment)
------------------------------------
-2-1-2-3-3-3^--2-1-2-7-5-------
-2-1-2-3-3------2-1-2-7-5-------
-2-1-2-3-3------2-1-2-7-5-------

La meilleure partie, le solo
----8-10---8-8^-6-5---------------------8-10---8-8^-6-5--------------------------
-10------6------------8-6-8-8^-6-5--10------6-------------8-6-8-8^-6-5-6-5-6-5
----------------------------------------------------------------------------------------
----------------------------------------------------------------------------------------

--------------------------------------------------------------------------------------------------------------
-6-5-6-5-5-3-6-5-6-5-6-5-6-5-6-5-5-3-6-5-6-5-6-5-6-5-6-5-5-3-6-5-6-5-6-5-6-5-6-5-5-3----------
--------------------------------------------------------------------------------------------------------------
--------------------------------------------------------------------------------------------------------------

voila il faudra surement que j'apporte quelques modifications, voir carrement tout changer si cela s'avere mauvais, en esperant que vous vous amuserez bien la dessus et que je n'ai pas trop massacrer le mythe

bonne journée Smile
Revenir en haut Aller en bas
Voir le profil de l'utilisateur
Lepticidou

avatar

Messages : 216
Date d'inscription : 06/12/2008
Age : 28
Localisation : Genève/Suisse

MessageSujet: Re: Nirvana, Smells like teen spirit   Sam 21 Mai 2011 - 15:27

Pour les accords, j'utilise cette version qui je trouve sonne un poile mieux

----0---5----3-----8---------------
----0---5----3-----8--------------
----1---6----4-----9-------------
----2---7----5-----10---------

Ce qui donne

A-D-C-F en barré.

j’espère que ma petite contribution sera utile.

Merci en tout cas de t'être donné la peine de tout transcrire.
Revenir en haut Aller en bas
Voir le profil de l'utilisateur
 
Nirvana, Smells like teen spirit
Voir le sujet précédent Voir le sujet suivant Revenir en haut 
Page 1 sur 1
 Sujets similaires
-
» Spirit : The Family That Plays Together (1968)
» "A Sinister Tribute To Nirvana" Compilation
» Nirvana - To Markos III (1969)
» Evil Spirit distro: SouthAmerican demotapes, etc; in sale!
» Votre album préféré de Nirvana ?

Permission de ce forum:Vous ne pouvez pas répondre aux sujets dans ce forum
Forum Ukulele4ever :: Tablatures :: PARTAGE de tablatures-
Sauter vers: