Forum Ukulele4ever

Chers amis et amateurs de Ukulélé, ce forum propose que chacun puisse partager sa passion envers cet instrument.Tablatures, conseils, discussions musicales et amicales sont les bienvenus.
 
AccueilCalendrierFAQRechercherMembresGroupesS'enregistrerConnexion

Partagez | 
 

 HUMMINGBIRD YEEEEEEEEEEEEEEEEEEEEEEEES !

Voir le sujet précédent Voir le sujet suivant Aller en bas 
AuteurMessage
Joujo'



Messages : 61
Date d'inscription : 08/12/2008

MessageSujet: HUMMINGBIRD YEEEEEEEEEEEEEEEEEEEEEEEES !   Mer 21 Jan 2009 - 17:39

Tout est dans le titre, je sais pas vous, mais moi j'ai vraiment eu du mal à la trouver, j'espère que je ferais deux trois heureux Smile !


Intro :
F C G Am
(Bb) (F) (C) (Dm)
-----5-------3-------3-------------0-----
---6-----5-------3---------3h5-3-----3---
-5---------5-------4-----2-------2-----2-
-----------------------------------------
-----------------------------------------
-----------------------------------------

F C G Am
(Bb) (F) (C) (Dm)
---------5----------------3------3-------3------0---------0-------
-0---6------6-----3h5-3------3-----3--------3-----3h5-3-----3---0-
---5---5------5-0-------0------0-----4-0------0---------2-----2---
------------------------------------------------------------------
------------------------------------------------------------------
------------------------------------------------------------------

Couplets et refrains :
F C G Am x3
(Bb) (F) (C) (Dm)
---------5----------------3------3-------3------0---------0-------
-0---6------6-----3h5-3------3-----3--------3-----3h5-3-----3---0-
---5---5------5-0-------0------0-----4-0------0---------2-----2---
------------------------------------------------------------------
------------------------------------------------------------------
------------------------------------------------------------------

F C G G7
(Bb) (F) (C) (C7)
---------5----------------3------3-------3--------1-------1-----
-0---6------6-----3h5-3------3-----3--------3---3---3---3---3---
---5---5------5-0-------0------0-----4-0------0-------0-------0-
----------------------------------------------------------------
----------------------------------------------------------------
----------------------------------------------------------------


F C G Am
(Bb) (F) (C) (Dm)
There's a long, long road to reach your house
F C G Am
(Bb) (F) (C) (Dm)
I arrived just before, just before the sunset
F C G Am
(Bb) (F) (C) (Dm)
And you said, and you said welcome with your eyes
F C G G7
(Bb) (F) (C) (C7)
And we said, and we said nothing at all



Enjoy !
Revenir en haut Aller en bas
Voir le profil de l'utilisateur
uku-beginner

avatar

Messages : 25
Date d'inscription : 26/12/2008
Age : 24
Localisation : chatellerault/france

MessageSujet: Re: HUMMINGBIRD YEEEEEEEEEEEEEEEEEEEEEEEES !   Ven 23 Jan 2009 - 21:19

Est-ce que c'est moi ou c'est une tablature guitare ? Question
Revenir en haut Aller en bas
Voir le profil de l'utilisateur
Joujo'



Messages : 61
Date d'inscription : 08/12/2008

MessageSujet: !   Ven 23 Jan 2009 - 22:56

Guitare avec un capo en cinquième case, inutile de te rappeller que en cinquième case à la guitare ça fais les note du ukulélé Smile . Ca passe très bien vous verrez !
Revenir en haut Aller en bas
Voir le profil de l'utilisateur
Contenu sponsorisé




MessageSujet: Re: HUMMINGBIRD YEEEEEEEEEEEEEEEEEEEEEEEES !   

Revenir en haut Aller en bas
 
HUMMINGBIRD YEEEEEEEEEEEEEEEEEEEEEEEES !
Voir le sujet précédent Voir le sujet suivant Revenir en haut 
Page 1 sur 1
 Sujets similaires
-
» Comparatif "maison" Hummingbird, 0-17, OM Provost
» Gibson Hummingbird Vintage or not Vintage
» Gibson Hummingbird
» Gibson Hummingbird 1966
» ANNEE DE FABRICATION GIBSON HUMMINGBIRD

Permission de ce forum:Vous ne pouvez pas répondre aux sujets dans ce forum
Forum Ukulele4ever :: Tablatures :: PARTAGE de tablatures-
Sauter vers: