Forum Ukulele4ever

Chers amis et amateurs de Ukulélé, ce forum propose que chacun puisse partager sa passion envers cet instrument.Tablatures, conseils, discussions musicales et amicales sont les bienvenus.
 
AccueilCalendrierFAQRechercherMembresGroupesS'enregistrerConnexion

Partagez | 
 

 Come Together - Lennon/McCartney -finger picking

Voir le sujet précédent Voir le sujet suivant Aller en bas 
AuteurMessage
Ukedenis



Messages : 4
Date d'inscription : 15/08/2014

MessageSujet: Come Together - Lennon/McCartney -finger picking   Mar 17 Fév 2015 - 2:34



Tabs/Chords for Ukulele
Standard Tuning: G, C, E, A

Riff:

|3------------6-------------------|3------------6-------------------|
|3-------6/8-6-----------8-------|3-------6/8-6-----------8-------|
|3-------5/7-7-----------7-------|3-------5/7-7-----------7-------|
|0---------------------------------|0-------------------------------|

Repeat 2x

| Cm - - - | Cm - - - | Cm - - - | Cm - - - |
Here come old flattop he come grooving up slowly
He got joo joo eyeball he one holy roller

| G7 - - - | G7 - - Gb7 | F7 - - - | - - - - |
He got hair down to his knee
Got to be a joker he just do what he please

| Cm - - - | Cm - - - | Cm - - - | Cm - - - |
He wear no shoe shine he got toe jam football
He got monkey finger he shoot Coca-Cola

| G7 - - - | G7 - - Gb7 | F7 - - - | - - - - |
He say,"I know you and you know me"
One thing I can tell you is you got to be free

| Am - - G7 | F7 - G7 - |
Come together right now over me

Repeat Riff

| Cm - - - | Cm - - - | Cm - - - | Cm - - - |
He bag production he got walrus gumboot
He got Ono sideboard he one spinal cracker

| G7 - - - | G7 - - Gb7 | F7 - - - | - - - - |
He got feet down below his knee
Hold you in his armchair you can feel his disease

| Am - - G7 | F7 - G7 - |
Come together right now over me

Repeat Riff





Solo:

|----6-6-6-6-6-6-6----------------|----6-6-6-6-6-6-6----------------|
|----8-8-8-8-8-8-8---8---6---8---|----8-8-8-8-8-8-8---8---6---8---|
|----7-7-7-7-7-7-7---7---7---7---|----7-7-7-7-7-7-7---7---7---7---|
|----0-0-0-0-0-0-0---0---0---0---|----0-0-0-0-0-0-0---0---0---0---|

Repeat above 2x

|T-------T-------T-------T-8------|T-------T-------T-------T-8-----|
|7-------7-------7-------7-7-T---|7-------7-------7-------7-7-T---|
|7-------7-------7-------7-7-7---|7-------7-------7-------7-7-7---|
|7-------7-------7-------7-7-7---|7-------7-------7-------7-7-7---|

|T-------T-------T-------T-8-----|--------------------------8-8-8---|
|7-------7-------7-------7-7-T---|T-------T-------7-------T-T-T---|
|7-------7-------7-------7-7-7---|7-------7-------7-------7-7-7---|
|7-------7-------7-------7-7-7---|7-------7-------7-------7-7-7---|

Repeat Riff

| Cm - - - | Cm - - - | Cm - - - | Cm - - - |
He roller coaster he got early warning
He got muddy water he one mojo filter

| G7 - - - | G7 - - Gb7 | F7 - - - | - - - - |
He say, "One and one and one is three"
Got to be good-looking 'cause he's so hard to see

| Am - - G7 | F7 - G7 - |
Come together right now over me

Repeat Riff 3x
Revenir en haut Aller en bas
Voir le profil de l'utilisateur
 
Come Together - Lennon/McCartney -finger picking
Voir le sujet précédent Voir le sujet suivant Revenir en haut 
Page 1 sur 1
 Sujets similaires
-
» morceau de finger picking
» Lennon ou McCartney ?
» Lennon Remembers : l’interview inédite
» Jouer en fingerpicking sur un réso
» Steve Hill (repost)

Permission de ce forum:Vous ne pouvez pas répondre aux sujets dans ce forum
Forum Ukulele4ever :: Tablatures :: PARTAGE de tablatures-
Sauter vers: