Forum Ukulele4ever

Chers amis et amateurs de Ukulélé, ce forum propose que chacun puisse partager sa passion envers cet instrument.Tablatures, conseils, discussions musicales et amicales sont les bienvenus.
 
AccueilCalendrierFAQRechercherMembresGroupesS'enregistrerConnexion

Partagez | 
 

 Cocoon - Hummingbird - finger picking

Voir le sujet précédent Voir le sujet suivant Aller en bas 
AuteurMessage
Ukedenis



Messages : 4
Date d'inscription : 15/08/2014

MessageSujet: Cocoon - Hummingbird - finger picking   Mar 17 Fév 2015 - 2:28




Accords
Bb F C Dm C7
A||---5----3----3----0----3---|
E||---6----1----0----1----0---| Ukulélé
C||---5----0----0----2----0---|
G||--------2----0----2----3---|

Intro
| | | | | | | |
A||-----------5-----------------------3-------------|
E||-------6-----------------------1-----------------|
C||-5-----------------------------------------------|
G||-------------------------2-----------------------|

| | | | | | | |
A||-----------3-----------------------0-------------|
E||-------0---------------0-----1-----------1-----0-|
C||-------------------------------2-----------2-----|
G||-0-----------------------0h2---------------------|

Riff principal
| | | | | | | |
A||-----------5-----------------------3-----------3-|
E||-----6-----------6-----0-----1-----------1-------|
C||-5-----5-----------5-----------0-----------0-----|
G||-------------------------0h2---------------------|

| | | | | | | |
A||-----------3-----------0-----------0-------------|
E||-----0-----------0-----------1-----------1-----0-|
C||-------0-----------0-----------2-----------2-----|
G||-0-----------------------0h2---------------------|


Ce riff est joué tout au long de la chanson.

La seule exception est juste avant les refrains et les couplets, il y a un changement dans le dernier accord, c'est un C7 (ou un C).

Ce qui donne :
| | | | | | | |
A||-----------5-----------------------3-----------3-|
E||-----6-----------6-----0-----1-----------1-------|
C||-5-----5-----------5-----------0-----------0-----|
G||-------------------------0h2---------------------|

| | | | | | | |
A||-----------3-----------3-----------3-------------|
E||-----0-----------0-----------0-----------0-----0-|
C||-------0-----------0-----------0-----------0-----|
G||-0-----------------------3-----------3-----------|
!!!
Revenir en haut Aller en bas
Voir le profil de l'utilisateur
 
Cocoon - Hummingbird - finger picking
Voir le sujet précédent Voir le sujet suivant Revenir en haut 
Page 1 sur 1
 Sujets similaires
-
» morceau de finger picking
» Jouer en fingerpicking sur un réso
» Steve Hill (repost)
» Première sortie du Jipes Project
» Mon projet solo / fingerpicking en hommage aux Beatles

Permission de ce forum:Vous ne pouvez pas répondre aux sujets dans ce forum
Forum Ukulele4ever :: Tablatures :: PARTAGE de tablatures-
Sauter vers: